  0
SECTION
  2
HEADER
  9
$ACADVER
  1
AC1015
  9
$ACADMAINTVER
 70
     6
  9
$DWGCODEPAGE
  3
ANSI_1254
  9
$INSBASE
 10
0.0
 20
0.0
 30
0.0
  9
$EXTMIN
 10
0.0
 20
0.0
 30
0.0
  9
$EXTMAX
 10
279.4
 20
215.9
 30
0.0
  9
$LIMMIN
 10
0.0
 20
0.0
  9
$LIMMAX
 10
279.4
 20
215.9
  9
$ORTHOMODE
 70
     0
  9
$REGENMODE
 70
     1
  9
$FILLMODE
 70
     1
  9
$QTEXTMODE
 70
     0
  9
$MIRRTEXT
 70
     1
  9
$LTSCALE
 40
1.0
  9
$ATTMODE
 70
     1
  9
$TEXTSIZE
 40
3.5
  9
$TRACEWID
 40
1.0
  9
$TEXTSTYLE
  7
Standard
  9
$CLAYER
  8
0
  9
$CELTYPE
  6
ByLayer
  9
$CECOLOR
 62
   256
  9
$CELTSCALE
 40
1.0
  9
$DISPSILH
 70
     0
  9
$DIMSCALE
 40
1.0
  9
$DIMASZ
 40
3.5
  9
$DIMEXO
 40
1.0
  9
$DIMDLI
 40
3.75
  9
$DIMRND
 40
0.0
  9
$DIMDLE
 40
0.0
  9
$DIMEXE
 40
1.0
  9
$DIMTP
 40
0.0
  9
$DIMTM
 40
0.0
  9
$DIMTXT
 40
3.5
  9
$DIMCEN
 40
2.5
  9
$DIMTSZ
 40
0.0
  9
$DIMTOL
 70
     0
  9
$DIMLIM
 70
     0
  9
$DIMTIH
 70
     1
  9
$DIMTOH
 70
     1
  9
$DIMSE1
 70
     0
  9
$DIMSE2
 70
     0
  9
$DIMTAD
 70
     1
  9
$DIMZIN
 70
     0
  9
$DIMBLK
  1

  9
$DIMASO
 70
     1
  9
$DIMSHO
 70
     1
  9
$DIMPOST
  1

  9
$DIMAPOST
  1

  9
$DIMALT
 70
     0
  9
$DIMALTD
 70
     3
  9
$DIMALTF
 40
0.0393700787
  9
$DIMLFAC
 40
1.0
  9
$DIMTOFL
 70
     1
  9
$DIMTVP
 40
0.0
  9
$DIMTIX
 70
     0
  9
$DIMSOXD
 70
     0
  9
$DIMSAH
 70
     0
  9
$DIMBLK1
  1

  9
$DIMBLK2
  1

  9
$DIMSTYLE
  2
ISO-25
  9
$DIMCLRD
 70
     0
  9
$DIMCLRE
 70
     0
  9
$DIMCLRT
 70
     0
  9
$DIMTFAC
 40
1.0
  9
$DIMGAP
 40
1.524
  9
$DIMJUST
 70
     0
  9
$DIMSD1
 70
     0
  9
$DIMSD2
 70
     0
  9
$DIMTOLJ
 70
     0
  9
$DIMTZIN
 70
     0
  9
$DIMALTZ
 70
     0
  9
$DIMALTTZ
 70
     0
  9
$DIMUPT
 70
     0
  9
$DIMDEC
 70
     2
  9
$DIMTDEC
 70
     2
  9
$DIMALTU
 70
     2
  9
$DIMALTTD
 70
     3
  9
$DIMTXSTY
  7
Standard
  9
$DIMAUNIT
 70
     0
  9
$DIMADEC
 70
     2
  9
$DIMALTRND
 40
0.0
  9
$DIMAZIN
 70
     0
  9
$DIMDSEP
 70
    44
  9
$DIMATFIT
 70
     3
  9
$DIMFRAC
 70
     0
  9
$DIMLDRBLK
  1

  9
$DIMLUNIT
 70
     2
  9
$DIMLWD
 70
    -2
  9
$DIMLWE
 70
    -2
  9
$DIMTMOVE
 70
     0
  9
$LUNITS
 70
     2
  9
$LUPREC
 70
     2
  9
$SKETCHINC
 40
1.0
  9
$FILLETRAD
 40
10.0
  9
$AUNITS
 70
     0
  9
$AUPREC
 70
     2
  9
$MENU
  1
.
  9
$ELEVATION
 40
0.0
  9
$PELEVATION
 40
0.0
  9
$THICKNESS
 40
0.0
  9
$LIMCHECK
 70
     0
  9
$CHAMFERA
 40
0.0
  9
$CHAMFERB
 40
0.0
  9
$CHAMFERC
 40
0.0
  9
$CHAMFERD
 40
0.0
  9
$SKPOLY
 70
     0
  9
$TDCREATE
 40
2458985.646337893
  9
$TDUCREATE
 40
2458985.521337893
  9
$TDUPDATE
 40
2458985.646338136
  9
$TDUUPDATE
 40
2458985.521338136
  9
$TDINDWG
 40
0.0000000116
  9
$TDUSRTIMER
 40
0.0000000116
  9
$USRTIMER
 70
     1
  9
$ANGBASE
 50
0.0
  9
$ANGDIR
 70
     0
  9
$PDMODE
 70
     0
  9
$PDSIZE
 40
-1.0
  9
$PLINEWID
 40
0.0
  9
$SPLFRAME
 70
     0
  9
$SPLINETYPE
 70
     6
  9
$SPLINESEGS
 70
     8
  9
$HANDSEED
  5
C2
  9
$SURFTAB1
 70
     6
  9
$SURFTAB2
 70
     6
  9
$SURFTYPE
 70
     6
  9
$SURFU
 70
     6
  9
$SURFV
 70
     6
  9
$UCSBASE
  2

  9
$UCSNAME
  2

  9
$UCSORG
 10
0.0
 20
0.0
 30
0.0
  9
$UCSXDIR
 10
1.0
 20
0.0
 30
0.0
  9
$UCSYDIR
 10
0.0
 20
1.0
 30
0.0
  9
$UCSORTHOREF
  2

  9
$UCSORTHOVIEW
 70
     0
  9
$UCSORGTOP
 10
0.0
 20
0.0
 30
0.0
  9
$UCSORGBOTTOM
 10
0.0
 20
0.0
 30
0.0
  9
$UCSORGLEFT
 10
0.0
 20
0.0
 30
0.0
  9
$UCSORGRIGHT
 10
0.0
 20
0.0
 30
0.0
  9
$UCSORGFRONT
 10
0.0
 20
0.0
 30
0.0
  9
$UCSORGBACK
 10
0.0
 20
0.0
 30
0.0
  9
$PUCSBASE
  2

  9
$PUCSNAME
  2

  9
$PUCSORG
 10
0.0
 20
0.0
 30
0.0
  9
$PUCSXDIR
 10
1.0
 20
0.0
 30
0.0
  9
$PUCSYDIR
 10
0.0
 20
1.0
 30
0.0
  9
$PUCSORTHOREF
  2

  9
$PUCSORTHOVIEW
 70
     0
  9
$PUCSORGTOP
 10
0.0
 20
0.0
 30
0.0
  9
$PUCSORGBOTTOM
 10
0.0
 20
0.0
 30
0.0
  9
$PUCSORGLEFT
 10
0.0
 20
0.0
 30
0.0
  9
$PUCSORGRIGHT
 10
0.0
 20
0.0
 30
0.0
  9
$PUCSORGFRONT
 10
0.0
 20
0.0
 30
0.0
  9
$PUCSORGBACK
 10
0.0
 20
0.0
 30
0.0
  9
$USERI1
 70
     0
  9
$USERI2
 70
     0
  9
$USERI3
 70
     0
  9
$USERI4
 70
     0
  9
$USERI5
 70
     0
  9
$USERR1
 40
0.0
  9
$USERR2
 40
0.0
  9
$USERR3
 40
0.0
  9
$USERR4
 40
0.0
  9
$USERR5
 40
0.0
  9
$WORLDVIEW
 70
     1
  9
$SHADEDGE
 70
     3
  9
$SHADEDIF
 70
    70
  9
$TILEMODE
 70
     1
  9
$MAXACTVP
 70
    64
  9
$PINSBASE
 10
0.0
 20
0.0
 30
0.0
  9
$PLIMCHECK
 70
     0
  9
$PEXTMIN
 10
1.0000000000E+20
 20
1.0000000000E+20
 30
1.0000000000E+20
  9
$PEXTMAX
 10
-1.0000000000E+20
 20
-1.0000000000E+20
 30
-1.0000000000E+20
  9
$PLIMMIN
 10
0.0
 20
0.0
  9
$PLIMMAX
 10
420.0
 20
297.0
  9
$UNITMODE
 70
     0
  9
$VISRETAIN
 70
     1
  9
$PLINEGEN
 70
     0
  9
$PSLTSCALE
 70
     1
  9
$TREEDEPTH
 70
  3020
  9
$CMLSTYLE
  2
Standard
  9
$CMLJUST
 70
     0
  9
$CMLSCALE
 40
20.0
  9
$PROXYGRAPHICS
 70
     1
  9
$MEASUREMENT
 70
     1
  9
$CELWEIGHT
370
    -1
  9
$ENDCAPS
280
     0
  9
$JOINSTYLE
280
     0
  9
$LWDISPLAY
290
     1
  9
$INSUNITS
 70
     4
  9
$HYPERLINKBASE
  1

  9
$STYLESHEET
  1

  9
$XEDIT
290
     1
  9
$CEPSNTYPE
380
     0
  9
$PSTYLEMODE
290
     1
  9
$FINGERPRINTGUID
  2
{26b05af5-7419-40da-8e50-a17832c6e5fc}
  9
$VERSIONGUID
  2
{FAEB1C32-E019-11D5-929B-00C0DF256EC4}
  9
$EXTNAMES
290
     1
  9
$PSVPSCALE
 40
0.0
  9
$OLESTARTUP
290
     0
  0
ENDSEC
  0
SECTION
  2
CLASSES
  0
CLASS
  1
ACDBDICTIONARYWDFLT
  2
AcDbDictionaryWithDefault
  3
ObjectDBX Classes
 90
        0
280
     0
281
     0
  0
CLASS
  1
VISUALSTYLE
  2
AcDbVisualStyle
  3
ObjectDBX Classes
 90
     4095
280
     0
281
     0
  0
CLASS
  1
MATERIAL
  2
AcDbMaterial
  3
ObjectDBX Classes
 90
     1153
280
     0
281
     0
  0
CLASS
  1
SCALE
  2
AcDbScale
  3
ObjectDBX Classes
 90
     1153
280
     0
281
     0
  0
CLASS
  1
TABLESTYLE
  2
AcDbTableStyle
  3
ObjectDBX Classes
 90
     4095
280
     0
281
     0
  0
CLASS
  1
MLEADERSTYLE
  2
AcDbMLeaderStyle
  3
ACDB_MLEADERSTYLE_CLASS
 90
     4095
280
     0
281
     0
  0
CLASS
  1
SUN
  2
AcDbSun
  3
SCENEOE
 90
     1153
280
     0
281
     0
  0
CLASS
  1
ACDBPLACEHOLDER
  2
AcDbPlaceHolder
  3
ObjectDBX Classes
 90
        0
280
     0
281
     0
  0
CLASS
  1
LAYOUT
  2
AcDbLayout
  3
ObjectDBX Classes
 90
        0
280
     0
281
     0
  0
ENDSEC
  0
SECTION
  2
TABLES
  0
TABLE
  2
VPORT
  5
8
330
0
100
AcDbSymbolTable
 70
     1
  0
VPORT
  5
29
330
8
100
AcDbSymbolTableRecord
100
AcDbViewportTableRecord
  2
*Active
 70
     0
 10
0.0
 20
0.0
 11
1.0
 21
1.0
 12
139.7
 22
107.95
 13
0.0
 23
0.0
 14
10.0
 24
10.0
 15
10.0
 25
10.0
 16
0.0
 26
0.0
 36
1.0
 17
0.0
 27
0.0
 37
0.0
 40
215.9
 41
1.2941176471
 42
50.0
 43
0.0
 44
0.0
 50
0.0
 51
0.0
 71
     0
 72
  2000
 73
     1
 74
     3
 75
     0
 76
     0
 77
     0
 78
     0
281
     0
 65
     1
110
0.0
120
0.0
130
0.0
111
1.0
121
0.0
131
0.0
112
0.0
122
1.0
132
0.0
 79
     0
146
0.0
  0
ENDTAB
  0
TABLE
  2
LTYPE
  5
5
330
0
100
AcDbSymbolTable
 70
     6
  0
LTYPE
  5
14
330
5
100
AcDbSymbolTableRecord
100
AcDbLinetypeTableRecord
  2
ByBlock
 70
     0
  3

 72
    65
 73
     0
 40
0.0
  0
LTYPE
  5
15
330
5
100
AcDbSymbolTableRecord
100
AcDbLinetypeTableRecord
  2
ByLayer
 70
     0
  3

 72
    65
 73
     0
 40
0.0
  0
LTYPE
  5
16
330
5
100
AcDbSymbolTableRecord
100
AcDbLinetypeTableRecord
  2
Continuous
 70
     0
  3
Solid line
 72
    65
 73
     0
 40
0.0
  0
LTYPE
  5
6E
330
5
100
AcDbSymbolTableRecord
100
AcDbLinetypeTableRecord
  2
HIDDEN
 70
     0
  3
Hidden __ __ __ __ __ __ __ __ __ __ __ __ __ __
 72
    65
 73
     2
 40
1.905
 49
1.27
 74
     0
 49
-0.635
 74
     0
  0
LTYPE
  5
6F
330
5
100
AcDbSymbolTableRecord
100
AcDbLinetypeTableRecord
  2
PHANTOM
 70
     0
  3
Phantom ______  __  __  ______  __  __  ______
 72
    65
 73
     6
 40
12.7
 49
6.35
 74
     0
 49
-1.27
 74
     0
 49
1.27
 74
     0
 49
-1.27
 74
     0
 49
1.27
 74
     0
 49
-1.27
 74
     0
  0
LTYPE
  5
70
330
5
100
AcDbSymbolTableRecord
100
AcDbLinetypeTableRecord
  2
CENTER
 70
     0
  3
Center ____ _ ____ _ ____ _ ____ _ ____ _ ____
 72
    65
 73
     4
 40
10.16
 49
6.35
 74
     0
 49
-1.27
 74
     0
 49
1.27
 74
     0
 49
-1.27
 74
     0
  0
LTYPE
  5
71
330
5
100
AcDbSymbolTableRecord
100
AcDbLinetypeTableRecord
  2
CENTERX2
 70
     0
  3
Center (2x) ________  __  ________  __  _____
 72
    65
 73
     4
 40
20.32
 49
12.7
 74
     0
 49
-2.54
 74
     0
 49
2.54
 74
     0
 49
-2.54
 74
     0
  0
LTYPE
  5
72
330
5
100
AcDbSymbolTableRecord
100
AcDbLinetypeTableRecord
  2
DOT2
 70
     0
  3
Dot (.5x) ........................................
 72
    65
 73
     2
 40
0.635
 49
0.0
 74
     0
 49
-0.635
 74
     0
  0
ENDTAB
  0
TABLE
  2
LAYER
  5
2
330
0
100
AcDbSymbolTable
 70
    17
  0
LAYER
  5
10
330
2
100
AcDbSymbolTableRecord
100
AcDbLayerTableRecord
  2
0
 70
     0
 62
     7
  6
Continuous
370
    -3
390
F
  0
LAYER
  5
73
330
2
100
AcDbSymbolTableRecord
100
AcDbLayerTableRecord
  2
FORMAT
 70
     0
 62
     7
  6
Continuous
370
    -3
390
F
  0
LAYER
  5
74
330
2
100
AcDbSymbolTableRecord
100
AcDbLayerTableRecord
  2
YARDIMCI_GEOMETRI
 70
     0
 62
    -6
  6
Continuous
290
     0
370
    -3
390
F
  0
LAYER
  5
75
330
2
100
AcDbSymbolTableRecord
100
AcDbLayerTableRecord
  2
SAYFA_CERCEVESI
 70
     0
 62
     7
  6
Continuous
370
    25
390
F
  0
LAYER
  5
76
330
2
100
AcDbSymbolTableRecord
100
AcDbLayerTableRecord
  2
ANTET
 70
     0
 62
     7
  6
Continuous
370
    -3
390
F
  0
LAYER
  5
77
330
2
100
AcDbSymbolTableRecord
100
AcDbLayerTableRecord
  2
OLCU
 70
     0
 62
   150
  6
Continuous
370
    -3
390
F
  0
LAYER
  5
78
330
2
100
AcDbSymbolTableRecord
100
AcDbLayerTableRecord
  2
METIN
 70
     0
 62
    96
  6
Continuous
370
    -3
390
F
  0
LAYER
  5
79
330
2
100
AcDbSymbolTableRecord
100
AcDbLayerTableRecord
  2
BALON
 70
     0
 62
     5
  6
Continuous
370
    -3
390
F
  0
LAYER
  5
7A
330
2
100
AcDbSymbolTableRecord
100
AcDbLayerTableRecord
  2
VURGU
 70
     0
 62
     7
  6
Continuous
370
    -3
390
F
  0
LAYER
  5
7B
330
2
100
AcDbSymbolTableRecord
100
AcDbLayerTableRecord
  2
SILIK
 70
     0
 62
     7
  6
Continuous
370
    -3
390
F
  0
LAYER
  5
7C
330
2
100
AcDbSymbolTableRecord
100
AcDbLayerTableRecord
  2
MODEL
 70
     0
 62
     7
  6
Continuous
370
    -3
390
F
  0
LAYER
  5
7D
330
2
100
AcDbSymbolTableRecord
100
AcDbLayerTableRecord
  2
DETAYLANDıRMA
 70
     0
 62
   190
  6
Continuous
370
    -3
390
F
  0
LAYER
  5
7E
330
2
100
AcDbSymbolTableRecord
100
AcDbLayerTableRecord
  2
TOLERANS
 70
     0
 62
   230
  6
Continuous
370
    -3
390
F
  0
LAYER
  5
7F
330
2
100
AcDbSymbolTableRecord
100
AcDbLayerTableRecord
  2
MERKEZ_CIZGILERI
 70
     0
 62
    30
  6
Continuous
370
    -3
390
F
  0
LAYER
  5
80
330
2
100
AcDbSymbolTableRecord
100
AcDbLayerTableRecord
  2
KESIT-DETAY_CIZGILERI
 70
     0
 62
     7
  6
Continuous
370
    -3
390
F
  0
LAYER
  5
81
330
2
100
AcDbSymbolTableRecord
100
AcDbLayerTableRecord
  2
\U+041E\U+0421\U+0415\U+0412\U+042B\U+0415
 70
     0
 62
     7
  6
Continuous
370
    -3
390
F
  0
LAYER
  5
82
330
2
100
AcDbSymbolTableRecord
100
AcDbLayerTableRecord
  2
\U+0412\U+041E\U+0414\U+042F\U+041D\U+042B\U+0415_\U+0417\U+041D\U+0410\U+041A\U+0418
 70
     0
 62
    11
  6
Continuous
370
    -3
390
F
  0
ENDTAB
  0
TABLE
  2
STYLE
  5
3
330
0
100
AcDbSymbolTable
 70
     1
  0
STYLE
  5
11
330
3
100
AcDbSymbolTableRecord
100
AcDbTextStyleTableRecord
  2
Standard
 70
     0
 40
0.0
 41
1.0
 50
0.0
 71
     0
 42
3.5
  3
txt
  4

  0
ENDTAB
  0
TABLE
  2
VIEW
  5
6
330
0
100
AcDbSymbolTable
 70
     0
  0
ENDTAB
  0
TABLE
  2
UCS
  5
7
330
0
100
AcDbSymbolTable
 70
     0
  0
ENDTAB
  0
TABLE
  2
APPID
  5
9
330
0
100
AcDbSymbolTable
 70
     1
  0
APPID
  5
12
330
9
100
AcDbSymbolTableRecord
100
AcDbRegAppTableRecord
  2
ACAD
 70
     0
  0
ENDTAB
  0
TABLE
  2
DIMSTYLE
  5
A
330
0
100
AcDbSymbolTable
 70
     1
100
AcDbDimStyleTable
  0
DIMSTYLE
105
27
330
A
100
AcDbSymbolTableRecord
100
AcDbDimStyleTableRecord
  2
ISO-25
 70
     0
 41
2.5
 42
0.625
 43
3.75
 44
1.25
 73
     0
 74
     0
 77
     1
 78
     8
140
2.5
141
2.5
143
0.0393700787
147
0.625
171
     3
172
     1
178
     0
271
     2
272
     2
274
     3
278
    44
283
     0
284
     8
340
11
  0
ENDTAB
  0
TABLE
  2
BLOCK_RECORD
  5
1
330
0
100
AcDbSymbolTable
 70
     1
  0
BLOCK_RECORD
  5
1F
330
1
100
AcDbSymbolTableRecord
100
AcDbBlockTableRecord
  2
*Model_Space
340
22
  0
BLOCK_RECORD
  5
1B
330
1
100
AcDbSymbolTableRecord
100
AcDbBlockTableRecord
  2
*Paper_Space
340
1E
  0
BLOCK_RECORD
  5
23
330
1
100
AcDbSymbolTableRecord
100
AcDbBlockTableRecord
  2
*Paper_Space0
340
26
  0
ENDTAB
  0
ENDSEC
  0
SECTION
  2
BLOCKS
  0
BLOCK
  5
20
330
1F
100
AcDbEntity
  8
0
100
AcDbBlockBegin
  2
*Model_Space
 70
     0
 10
0.0
 20
0.0
 30
0.0
  3
*Model_Space
  1

  0
ENDBLK
  5
21
330
1F
100
AcDbEntity
  8
0
100
AcDbBlockEnd
  0
BLOCK
  5
1C
330
1B
100
AcDbEntity
 67
     1
  8
0
100
AcDbBlockBegin
  2
*Paper_Space
 70
     0
 10
0.0
 20
0.0
 30
0.0
  3
*Paper_Space
  1

  0
ENDBLK
  5
1D
330
1B
100
AcDbEntity
 67
     1
  8
0
100
AcDbBlockEnd
  0
BLOCK
  5
24
330
23
100
AcDbEntity
  8
0
100
AcDbBlockBegin
  2
*Paper_Space0
 70
     0
 10
0.0
 20
0.0
 30
0.0
  3
*Paper_Space0
  1

  0
ENDBLK
  5
25
330
23
100
AcDbEntity
  8
0
100
AcDbBlockEnd
  0
ENDSEC
  0
SECTION
  2
ENTITIES
  0
CIRCLE
  5
83
330
1F
100
AcDbEntity
  8
0
  6
Continuous
 62
     7
370
    25
100
AcDbCircle
 10
143.0237909439
 20
105.9712997424
 30
0.0
 40
140.0
  0
CIRCLE
  5
84
330
1F
100
AcDbEntity
  8
0
  6
Continuous
 62
     7
370
    25
100
AcDbCircle
 10
143.0237909439
 20
105.9712997424
 30
0.0
 40
114.6
  0
CIRCLE
  5
85
330
1F
100
AcDbEntity
  8
0
  6
Continuous
 62
     7
370
    25
100
AcDbCircle
 10
143.0237909439
 20
105.9712997424
 30
0.0
 40
144.0
  0
CIRCLE
  5
86
330
1F
100
AcDbEntity
  8
0
  6
Continuous
 62
     7
370
    25
100
AcDbCircle
 10
143.0237909439
 20
105.9712997424
 30
0.0
 40
160.0
  0
LINE
  5
87
330
1F
100
AcDbEntity
  8
0
  6
Continuous
 62
     7
370
    25
100
AcDbLine
 10
303.0237909439
 20
364.2257438943
 30
0.0
 11
303.0237909439
 21
399.2257438943
 31
0.0
  0
LINE
  5
88
330
1F
100
AcDbEntity
  8
0
  6
Continuous
 62
     7
370
    25
100
AcDbLine
 10
-16.9762090561
 20
399.2257438943
 30
0.0
 11
-16.9762090561
 21
364.2257438943
 31
0.0
  0
LINE
  5
89
330
1F
100
AcDbEntity
  8
0
  6
Continuous
 62
     7
370
    25
100
AcDbLine
 10
287.0237909439
 20
399.2257438943
 30
0.0
 11
283.0237909439
 21
438.2257438943
 31
0.0
  0
LINE
  5
8A
330
1F
100
AcDbEntity
  8
0
  6
Continuous
 62
     7
370
    25
100
AcDbLine
 10
3.0237909439
 20
438.2257438943
 30
0.0
 11
-0.9762090561
 21
399.2257438943
 31
0.0
  0
LINE
  5
8B
330
1F
100
AcDbEntity
  8
0
  6
Continuous
 62
     7
370
    25
100
AcDbLine
 10
283.0237909439
 20
438.2257438943
 30
0.0
 11
283.0237909439
 21
484.2257438943
 31
0.0
  0
LINE
  5
8C
330
1F
100
AcDbEntity
  8
0
  6
Continuous
 62
     7
370
    25
100
AcDbLine
 10
3.0237909439
 20
484.2257438943
 30
0.0
 11
3.0237909439
 21
438.2257438943
 31
0.0
  0
LINE
  5
8D
330
1F
100
AcDbEntity
  8
0
  6
Continuous
 62
     7
370
    25
100
AcDbLine
 10
303.0237909439
 20
364.2257438943
 30
0.0
 11
-16.9762090561
 21
364.2257438943
 31
0.0
  0
LINE
  5
8E
330
1F
100
AcDbEntity
  8
0
  6
Continuous
 62
     7
370
    25
100
AcDbLine
 10
303.0237909439
 20
399.2257438943
 30
0.0
 11
-16.9762090561
 21
399.2257438943
 31
0.0
  0
LINE
  5
8F
330
1F
100
AcDbEntity
  8
0
  6
Continuous
 62
     7
370
    25
100
AcDbLine
 10
283.0237909439
 20
438.2257438943
 30
0.0
 11
3.0237909439
 21
438.2257438943
 31
0.0
  0
LINE
  5
90
330
1F
100
AcDbEntity
  8
0
  6
Continuous
 62
     7
370
    25
100
AcDbLine
 10
283.0237909439
 20
484.2257438943
 30
0.0
 11
3.0237909439
 21
484.2257438943
 31
0.0
  0
LINE
  5
91
330
1F
100
AcDbEntity
  8
0
  6
Continuous
 62
     7
370
    25
100
AcDbLine
 10
-188.3484884461
 20
265.9712997424
 30
0.0
 11
-223.3484884461
 21
265.9712997424
 31
0.0
  0
LINE
  5
92
330
1F
100
AcDbEntity
  8
0
  6
Continuous
 62
     7
370
    25
100
AcDbLine
 10
-223.3484884461
 20
-54.0287002576
 30
0.0
 11
-188.3484884461
 21
-54.0287002576
 31
0.0
  0
LINE
  5
93
330
1F
100
AcDbEntity
  8
0
  6
Continuous
 62
     7
370
    25
100
AcDbLine
 10
-223.3484884461
 20
249.9712997424
 30
0.0
 11
-262.3484884461
 21
245.9712997424
 31
0.0
  0
LINE
  5
94
330
1F
100
AcDbEntity
  8
0
  6
Continuous
 62
     7
370
    25
100
AcDbLine
 10
-262.3484884461
 20
-34.0287002576
 30
0.0
 11
-223.3484884461
 21
-38.0287002576
 31
0.0
  0
LINE
  5
95
330
1F
100
AcDbEntity
  8
0
  6
Continuous
 62
     7
370
    25
100
AcDbLine
 10
-262.3484884461
 20
245.9712997424
 30
0.0
 11
-308.3484884461
 21
245.9712997424
 31
0.0
  0
LINE
  5
96
330
1F
100
AcDbEntity
  8
0
  6
Continuous
 62
     7
370
    25
100
AcDbLine
 10
-308.3484884461
 20
-34.0287002576
 30
0.0
 11
-262.3484884461
 21
-34.0287002576
 31
0.0
  0
LINE
  5
97
330
1F
100
AcDbEntity
  8
0
  6
Continuous
 62
     7
370
    25
100
AcDbLine
 10
-188.3484884461
 20
265.9712997424
 30
0.0
 11
-188.3484884461
 21
-54.0287002576
 31
0.0
  0
LINE
  5
98
330
1F
100
AcDbEntity
  8
0
  6
Continuous
 62
     7
370
    25
100
AcDbLine
 10
-223.3484884461
 20
265.9712997424
 30
0.0
 11
-223.3484884461
 21
-54.0287002576
 31
0.0
  0
LINE
  5
99
330
1F
100
AcDbEntity
  8
0
  6
Continuous
 62
     7
370
    25
100
AcDbLine
 10
-262.3484884461
 20
245.9712997424
 30
0.0
 11
-262.3484884461
 21
-34.0287002576
 31
0.0
  0
LINE
  5
9A
330
1F
100
AcDbEntity
  8
0
  6
Continuous
 62
     7
370
    25
100
AcDbLine
 10
-308.3484884461
 20
245.9712997424
 30
0.0
 11
-308.3484884461
 21
-34.0287002576
 31
0.0
  0
LINE
  5
9B
330
1F
100
AcDbEntity
  8
0
  6
Continuous
 62
     7
370
    25
100
AcDbLine
 10
-16.9762090561
 20
-221.4235829844
 30
0.0
 11
-16.9762090561
 21
-256.4235829844
 31
0.0
  0
LINE
  5
9C
330
1F
100
AcDbEntity
  8
0
  6
Continuous
 62
     7
370
    25
100
AcDbLine
 10
303.0237909439
 20
-256.4235829844
 30
0.0
 11
303.0237909439
 21
-221.4235829844
 31
0.0
  0
LINE
  5
9D
330
1F
100
AcDbEntity
  8
0
  6
Continuous
 62
     7
370
    25
100
AcDbLine
 10
-0.9762090561
 20
-256.4235829844
 30
0.0
 11
3.0237909439
 21
-295.4235829844
 31
0.0
  0
LINE
  5
9E
330
1F
100
AcDbEntity
  8
0
  6
Continuous
 62
     7
370
    25
100
AcDbLine
 10
283.0237909439
 20
-295.4235829844
 30
0.0
 11
287.0237909439
 21
-256.4235829844
 31
0.0
  0
LINE
  5
9F
330
1F
100
AcDbEntity
  8
0
  6
Continuous
 62
     7
370
    25
100
AcDbLine
 10
3.0237909439
 20
-295.4235829844
 30
0.0
 11
3.0237909439
 21
-341.4235829844
 31
0.0
  0
LINE
  5
A0
330
1F
100
AcDbEntity
  8
0
  6
Continuous
 62
     7
370
    25
100
AcDbLine
 10
283.0237909439
 20
-341.4235829844
 30
0.0
 11
283.0237909439
 21
-295.4235829844
 31
0.0
  0
LINE
  5
A1
330
1F
100
AcDbEntity
  8
0
  6
Continuous
 62
     7
370
    25
100
AcDbLine
 10
-16.9762090561
 20
-221.4235829844
 30
0.0
 11
303.0237909439
 21
-221.4235829844
 31
0.0
  0
LINE
  5
A2
330
1F
100
AcDbEntity
  8
0
  6
Continuous
 62
     7
370
    25
100
AcDbLine
 10
-16.9762090561
 20
-256.4235829844
 30
0.0
 11
303.0237909439
 21
-256.4235829844
 31
0.0
  0
LINE
  5
A3
330
1F
100
AcDbEntity
  8
0
  6
Continuous
 62
     7
370
    25
100
AcDbLine
 10
3.0237909439
 20
-295.4235829844
 30
0.0
 11
283.0237909439
 21
-295.4235829844
 31
0.0
  0
LINE
  5
A4
330
1F
100
AcDbEntity
  8
0
  6
Continuous
 62
     7
370
    25
100
AcDbLine
 10
3.0237909439
 20
-341.4235829844
 30
0.0
 11
283.0237909439
 21
-341.4235829844
 31
0.0
  0
LINE
  5
A5
330
1F
100
AcDbEntity
  8
0
  6
Continuous
 62
     7
370
    25
100
AcDbLine
 10
551.7994904677
 20
-54.0287002576
 30
0.0
 11
586.7994904677
 21
-54.0287002576
 31
0.0
  0
LINE
  5
A6
330
1F
100
AcDbEntity
  8
0
  6
Continuous
 62
     7
370
    25
100
AcDbLine
 10
586.7994904677
 20
265.9712997424
 30
0.0
 11
551.7994904677
 21
265.9712997424
 31
0.0
  0
LINE
  5
A7
330
1F
100
AcDbEntity
  8
0
  6
Continuous
 62
     7
370
    25
100
AcDbLine
 10
586.7994904677
 20
-38.0287002576
 30
0.0
 11
625.7994904677
 21
-34.0287002576
 31
0.0
  0
LINE
  5
A8
330
1F
100
AcDbEntity
  8
0
  6
Continuous
 62
     7
370
    25
100
AcDbLine
 10
625.7994904677
 20
245.9712997424
 30
0.0
 11
586.7994904677
 21
249.9712997424
 31
0.0
  0
LINE
  5
A9
330
1F
100
AcDbEntity
  8
0
  6
Continuous
 62
     7
370
    25
100
AcDbLine
 10
625.7994904677
 20
-34.0287002576
 30
0.0
 11
671.7994904677
 21
-34.0287002576
 31
0.0
  0
LINE
  5
AA
330
1F
100
AcDbEntity
  8
0
  6
Continuous
 62
     7
370
    25
100
AcDbLine
 10
671.7994904677
 20
245.9712997424
 30
0.0
 11
625.7994904677
 21
245.9712997424
 31
0.0
  0
LINE
  5
AB
330
1F
100
AcDbEntity
  8
0
  6
Continuous
 62
     7
370
    25
100
AcDbLine
 10
551.7994904677
 20
105.9712997424
 30
0.0
 11
551.7994904677
 21
265.9712997424
 31
0.0
  0
LINE
  5
AC
330
1F
100
AcDbEntity
  8
0
  6
Continuous
 62
     7
370
    25
100
AcDbLine
 10
551.7994904677
 20
-54.0287002576
 30
0.0
 11
551.7994904677
 21
105.9712997424
 31
0.0
  0
LINE
  5
AD
330
1F
100
AcDbEntity
  8
0
  6
Continuous
 62
     7
370
    25
100
AcDbLine
 10
586.7994904677
 20
105.9712997424
 30
0.0
 11
586.7994904677
 21
265.9712997424
 31
0.0
  0
LINE
  5
AE
330
1F
100
AcDbEntity
  8
0
  6
Continuous
 62
     7
370
    25
100
AcDbLine
 10
586.7994904677
 20
-54.0287002576
 30
0.0
 11
586.7994904677
 21
105.9712997424
 31
0.0
  0
LINE
  5
AF
330
1F
100
AcDbEntity
  8
0
  6
Continuous
 62
     7
370
    25
100
AcDbLine
 10
625.7994904677
 20
105.9712997424
 30
0.0
 11
625.7994904677
 21
245.9712997424
 31
0.0
  0
LINE
  5
B0
330
1F
100
AcDbEntity
  8
0
  6
Continuous
 62
     7
370
    25
100
AcDbLine
 10
625.7994904677
 20
-34.0287002576
 30
0.0
 11
625.7994904677
 21
105.9712997424
 31
0.0
  0
LINE
  5
B1
330
1F
100
AcDbEntity
  8
0
  6
Continuous
 62
     7
370
    25
100
AcDbLine
 10
671.7994904677
 20
105.9712997424
 30
0.0
 11
671.7994904677
 21
245.9712997424
 31
0.0
  0
LINE
  5
B2
330
1F
100
AcDbEntity
  8
0
  6
Continuous
 62
     7
370
    25
100
AcDbLine
 10
671.7994904677
 20
-34.0287002576
 30
0.0
 11
671.7994904677
 21
105.9712997424
 31
0.0
  0
LINE
  5
B3
330
1F
100
AcDbEntity
  8
0
  6
Continuous
 62
     7
370
    25
100
AcDbLine
 10
617.5450965297
 20
-141.2041526602
 30
0.0
 11
585.0181845951
 21
-122.4267660883
 31
0.0
  0
LINE
  5
B4
330
1F
100
AcDbEntity
  8
0
  6
Continuous
 62
     7
370
    25
100
AcDbLine
 10
445.0295620261
 20
-364.9204475549
 30
0.0
 11
477.5564739606
 21
-383.6978341268
 31
0.0
  0
LINE
  5
B5
330
1F
100
AcDbEntity
  8
0
  6
Continuous
 62
     7
370
    25
100
AcDbLine
 10
641.7099239771
 20
-150.9734525175
 30
0.0
 11
615.0030043336
 21
-139.7366340725
 31
0.0
  0
LINE
  5
B6
330
1F
100
AcDbEntity
  8
0
  6
Continuous
 62
     7
370
    25
100
AcDbLine
 10
475.0143817646
 20
-382.2303155391
 30
0.0
 11
498.100854866
 21
-399.7386108686
 31
0.0
  0
LINE
  5
B7
330
1F
100
AcDbEntity
  8
0
  6
Continuous
 62
     7
370
    25
100
AcDbLine
 10
679.8701856638
 20
-154.0902755501
 30
0.0
 11
655.1214483223
 21
-139.8031335932
 31
0.0
  0
LINE
  5
B8
330
1F
100
AcDbEntity
  8
0
  6
Continuous
 62
     7
370
    25
100
AcDbLine
 10
495.1344511005
 20
-416.938769555
 30
0.0
 11
519.8831884421
 21
-431.2259115119
 31
0.0
  0
LWPOLYLINE
  5
B9
330
1F
100
AcDbEntity
  8
0
  6
Continuous
 62
     7
370
    25
100
AcDbPolyline
 90
      132
 70
   128
 43
0.0
 10
416.0289239445
 20
-300.8221746492
 10
416.1427697224
 20
-295.2756021026
 10
416.4840452073
 20
-289.6103433132
 10
417.0519654546
 20
-283.8394285578
 10
417.8452242294
 20
-277.9761311254
 10
418.8619970114
 20
-272.0339367877
 10
420.0999451903
 20
-266.0265127823
 10
421.5562214458
 20
-259.967676377
 10
423.2274762958
 20
-253.8713630894
 10
425.1098658006
 20
-247.7515946357
 10
427.199060404
 20
-241.6224466793
 10
429.4902548915
 20
-235.498016457
 10
431.9781794423
 20
-229.3923903545
 10
434.6571117502
 20
-223.3196115076
 10
437.5208901851
 20
-217.2936475021
 10
440.5629279648
 20
-211.3283582484
 10
443.776228305
 20
-205.4374641029
 10
447.1534005118
 20
-199.634514311
 10
450.686676981
 20
-193.9328558431
 10
454.3679310635
 20
-188.3456026964
 10
458.1886957568
 20
-182.8856057322
 10
462.1401831799
 20
-177.5654231185
 10
466.2133047849
 20
-172.3972914458
 10
470.3986922617
 20
-167.3930975825
 10
474.686719085
 20
-162.564351335
 10
479.0675226556
 20
-157.9221589742
 10
483.5310269849
 20
-153.4771976914
 10
488.06696587
 20
-149.23969104
 10
492.6649065061
 20
-145.2193854211
 10
497.3142734823
 20
-141.4255276664
 10
502.0043731056
 20
-137.8668437703
 10
506.7244179966
 20
-134.5515188199
 10
511.4635519008
 20
-131.4871781688
 10
516.2108746583
 20
-128.6808698986
 10
520.9554672747
 20
-126.1390486083
 10
525.6864170349
 20
-123.8675605684
 10
530.3928426028
 20
-121.8716302741
 10
535.0639190489
 20
-120.1558484291
 10
539.6889027475
 20
-118.7241613865
 10
544.2571560881
 20
-117.5798620725
 10
548.7581719415
 20
-116.7255824121
 10
553.181597827
 20
-116.163287276
 10
557.5172597233
 20
-115.894269961
 10
561.7551854692
 20
-115.9191492155
 10
565.8856276995
 20
-116.2378678165
 10
569.8990862649
 20
-116.8496927008
 10
573.786330082
 20
-117.7532166518
 10
577.5384183655
 20
-118.9463615354
 10
581.146721192
 20
-120.42638308
 10
584.6029393494
 20
-122.1898771888
 10
587.8991234253
 20
-124.2327877687
 10
591.0276920906
 20
-126.55041606
 10
593.9814495371
 20
-129.1374314433
 10
596.7536020281
 20
-131.9878837004
 10
599.337773524
 20
-135.0952166996
 10
601.7280203474
 20
-138.4522834755
 10
603.9188448543
 20
-142.051362667
 10
605.9052080779
 20
-145.8841762766
 10
607.6825413192
 20
-149.9419087102
 10
609.2467566548
 20
-154.2152270531
 10
610.5942563393
 20
-158.6943025362
 10
611.7219410802
 20
-163.3688331423
 10
612.6272171665
 20
-168.2280673013
 10
613.3080024342
 20
-173.2608286189
 10
613.7627310554
 20
-178.4555415827
 10
613.9903571396
 20
-183.8002581866
 10
613.9903571396
 20
-189.282685411
 10
613.7627310554
 20
-194.8902134976
 10
613.3080024342
 20
-200.6099449521
 10
612.6272171665
 20
-206.4287242089
 10
611.7219410802
 20
-212.3331678893
 10
610.5942563393
 20
-218.3096955835
 10
609.2467566548
 20
-224.3445610864
 10
607.6825413192
 20
-230.4238840139
 10
605.9052080779
 20
-236.5336817284
 10
603.9188448543
 20
-242.6599014995
 10
601.7280203474
 20
-248.7884528252
 10
599.337773524
 20
-254.9052398413
 10
596.7536020281
 20
-260.9961937414
 10
593.9814495371
 20
-267.0473051366
 10
591.0276920906
 20
-273.0446562766
 10
587.8991234253
 20
-278.9744530617
 10
584.6029393494
 20
-284.8230567692
 10
581.146721192
 20
-290.5770154231
 10
577.5384183655
 20
-296.2230947342
 10
573.786330082
 20
-301.7483085392
 10
569.8990862649
 20
-307.1399486691
 10
565.8856276995
 20
-312.385614179
 10
561.7551854692
 20
-317.4732398701
 10
557.5172597233
 20
-322.3911240403
 10
553.181597827
 20
-327.1279553982
 10
548.7581719415
 20
-331.6728390802
 10
544.2571560881
 20
-336.0153217079
 10
539.6889027475
 20
-340.1454154323
 10
535.0639190489
 20
-344.0536209055
 10
530.3928426028
 20
-347.7309491294
 10
525.6864170349
 20
-351.1689421316
 10
520.9554672747
 20
-354.3596924177
 10
516.2108746583
 20
-357.2958611601
 10
511.4635519008
 20
-359.9706950763
 10
506.7244179966
 20
-362.3780419628
 10
502.0043731056
 20
-364.5123648445
 10
497.3142734823
 20
-366.3687547105
 10
492.6649065061
 20
-367.9429418045
 10
488.06696587
 20
-369.2313054457
 10
483.5310269849
 20
-370.2308823566
 10
479.0675226556
 20
-370.9393734781
 10
474.686719085
 20
-371.3551492581
 10
470.3986922617
 20
-371.4772533988
 10
466.2133047849
 20
-371.3054050569
 10
462.1401831799
 20
-370.8399994891
 10
458.1886957568
 20
-370.082107143
 10
454.3679310635
 20
-369.0334711953
 10
450.686676981
 20
-367.6965035424
 10
447.1534005118
 20
-366.0742792526
 10
443.776228305
 20
-364.1705294939
 10
440.5629279648
 20
-361.9896329516
 10
437.5208901851
 20
-359.5366057578
 10
434.6571117502
 20
-356.8170899535
 10
431.9781794423
 20
-353.8373405123
 10
429.4902548915
 20
-350.6042109533
 10
427.199060404
 20
-347.1251375782
 10
425.1098658006
 20
-343.4081223673
 10
423.2274762958
 20
-339.4617145745
 10
421.5562214458
 20
-335.2949910643
 10
420.0999451903
 20
-330.9175354343
 10
418.8619970114
 20
-326.3394159728
 10
417.8452242294
 20
-321.5711625011
 10
417.0519654546
 20
-316.6237421551
 10
416.4840452073
 20
-311.5085341601
 10
416.1427697224
 20
-306.2373036585
 10
416.0289239445
 20
-300.8221746492
  0
LWPOLYLINE
  5
BA
330
1F
100
AcDbEntity
  8
0
  6
Continuous
 62
     7
370
    25
100
AcDbPolyline
 90
      119
 70
   128
 43
0.0
 10
433.9894361866
 20
-290.4537916291
 10
434.1042866447
 20
-285.4071941486
 10
434.4485124628
 20
-280.2422982806
 10
435.0211378954
 20
-274.9737444837
 10
435.8205397736
 20
-269.6164670459
 10
436.8444521059
 20
-264.1856517522
 10
438.0899725015
 20
-258.6966928386
 10
439.5535703975
 20
-253.1651493554
 10
441.2310970668
 20
-247.6067010637
 10
443.1177973776
 20
-242.0371039891
 10
445.208323273
 20
-236.4721457596
 10
447.4967489301
 20
-230.9276008538
 10
449.976587558
 20
-225.4191858868
 10
452.6408097844
 20
-219.9625150592
 10
455.4818635821
 20
-214.5730558973
 10
458.4916956755
 20
-209.2660854087
 10
461.6617743683
 20
-204.0566467778
 10
464.9831137282
 20
-198.9595067243
 10
468.4462990579
 20
-193.9891136457
 10
472.0415135823
 20
-189.1595566609
 10
475.7585662752
 20
-184.4845256742
 10
479.586920747
 20
-179.9772725686
 10
483.5157251109
 20
-175.6505736428
 10
487.5338427441
 20
-171.5166933951
 10
491.6298838557
 20
-167.587349758
 10
495.792237772
 20
-163.8736808831
 10
500.0091058488
 20
-160.3862135683
 10
504.2685349152
 20
-157.1348334185
 10
508.5584511568
 20
-154.128756824
 10
512.8666943399
 20
-151.3765048357
 10
517.1810522812
 20
-148.8858790106
 10
521.4892954644
 20
-146.6639392984
 10
525.779211706
 20
-144.7169840285
 10
530.0386407724
 20
-143.0505320572
 10
534.2555088491
 20
-141.6693071237
 10
538.4178627655
 20
-140.5772244601
 10
542.513903877
 20
-139.7773796933
 10
546.5320215103
 20
-139.2720400703
 10
550.4608258742
 20
-139.0626380312
 10
554.2891803459
 20
-139.1497671486
 10
558.0062330389
 20
-139.5331804458
 10
561.6014475633
 20
-140.211791096
 10
565.0646328929
 20
-141.1836755037
 10
568.3859722528
 20
-142.4460787568
 10
571.5560509457
 20
-143.9954224363
 10
574.565883039
 20
-145.8273147591
 10
577.4069368367
 20
-147.9365630274
 10
580.0711590632
 20
-150.3171883478
 10
582.550997691
 20
-152.9624425792
 10
584.8394233482
 20
-155.8648274612
 10
586.9299492436
 20
-159.0161158683
 10
588.8166495544
 20
-162.4073751313
 10
590.4941762236
 20
-166.0289923573
 10
591.9577741197
 20
-169.8707016788
 10
593.2032945153
 20
-173.9216133533
 10
594.2272068475
 20
-178.1702446317
 10
595.0266087257
 20
-182.6045523069
 10
595.5992341584
 20
-187.211966852
 10
595.9434599765
 20
-191.97942805
 10
596.0583104346
 20
-196.8934220142
 10
595.9434599765
 20
-201.9400194946
 10
595.5992341584
 20
-207.1049153626
 10
595.0266087257
 20
-212.3734691595
 10
594.2272068475
 20
-217.7307465973
 10
593.2032945153
 20
-223.161561891
 10
591.9577741197
 20
-228.6505208047
 10
590.4941762236
 20
-234.1820642878
 10
588.8166495544
 20
-239.7405125795
 10
586.9299492436
 20
-245.3101096541
 10
584.8394233482
 20
-250.8750678837
 10
582.550997691
 20
-256.4196127894
 10
580.0711590632
 20
-261.9280277564
 10
577.4069368367
 20
-267.384698584
 10
574.565883039
 20
-272.7741577459
 10
571.5560509457
 20
-278.0811282345
 10
568.3859722528
 20
-283.2905668655
 10
565.0646328929
 20
-288.3877069189
 10
561.6014475633
 20
-293.3580999976
 10
558.0062330388
 20
-298.1876569823
 10
554.2891803459
 20
-302.8626879691
 10
550.4608258742
 20
-307.3699410746
 10
546.5320215103
 20
-311.6966400004
 10
542.513903877
 20
-315.8305202482
 10
538.4178627655
 20
-319.7598638852
 10
534.2555088491
 20
-323.4735327601
 10
530.0386407724
 20
-326.9610000749
 10
525.779211706
 20
-330.2123802247
 10
521.4892954644
 20
-333.2184568192
 10
517.1810522812
 20
-335.9707088076
 10
512.8666943399
 20
-338.4613346326
 10
508.5584511568
 20
-340.6832743449
 10
504.2685349152
 20
-342.6302296147
 10
500.0091058488
 20
-344.296681586
 10
495.792237772
 20
-345.6779065195
 10
491.6298838557
 20
-346.7699891831
 10
487.5338427441
 20
-347.5698339499
 10
483.5157251109
 20
-348.0751735729
 10
479.586920747
 20
-348.2845756121
 10
475.7585662752
 20
-348.1974464946
 10
472.0415135823
 20
-347.8140331974
 10
468.4462990579
 20
-347.1354225472
 10
464.9831137282
 20
-346.1635381395
 10
461.6617743683
 20
-344.9011348864
 10
458.4916956755
 20
-343.3517912069
 10
455.4818635821
 20
-341.5198988841
 10
452.6408097844
 20
-339.4106506158
 10
449.976587558
 20
-337.0300252954
 10
447.4967489301
 20
-334.384771064
 10
445.208323273
 20
-331.4823861821
 10
443.1177973776
 20
-328.3310977749
 10
441.2310970668
 20
-324.939838512
 10
439.5535703975
 20
-321.318221286
 10
438.0899725015
 20
-317.4765119644
 10
436.8444521059
 20
-313.4256002899
 10
435.8205397736
 20
-309.1769690115
 10
435.0211378954
 20
-304.7426613363
 10
434.4485124628
 20
-300.1352467912
 10
434.1042866447
 20
-295.3677855932
 10
433.9894361866
 20
-290.4537916291
  0
LWPOLYLINE
  5
BB
330
1F
100
AcDbEntity
  8
0
  6
Continuous
 62
     7
370
    25
100
AcDbPolyline
 90
       67
 70
   128
 43
0.0
 10
617.5450965297
 20
-141.2041526602
 10
620.4260353599
 20
-143.0101743407
 10
623.5546040252
 20
-145.3278026319
 10
626.5083614717
 20
-147.9148180152
 10
629.2805139627
 20
-150.7652702723
 10
631.8646854585
 20
-153.8726032715
 10
634.254932282
 20
-157.2296700475
 10
636.4457567889
 20
-160.828749239
 10
638.4321200125
 20
-164.6615628486
 10
640.2094532538
 20
-168.7192952821
 10
641.7736685894
 20
-172.992613625
 10
643.1211682738
 20
-177.4716891081
 10
644.2488530148
 20
-182.1462197142
 10
645.1541291011
 20
-187.0054538732
 10
645.8349143688
 20
-192.0382151908
 10
646.28964299
 20
-197.2329281547
 10
646.5172690742
 20
-202.5776447585
 10
646.5172690742
 20
-208.0600719829
 10
646.28964299
 20
-213.6676000695
 10
645.8349143688
 20
-219.387331524
 10
645.1541291011
 20
-225.2061107809
 10
644.2488530148
 20
-231.1105544612
 10
643.1211682738
 20
-237.0870821555
 10
641.7736685894
 20
-243.1219476583
 10
640.2094532538
 20
-249.2012705858
 10
638.4321200125
 20
-255.3110683003
 10
636.4457567889
 20
-261.4372880714
 10
634.254932282
 20
-267.5658393971
 10
631.8646854585
 20
-273.6826264132
 10
629.2805139627
 20
-279.7735803134
 10
626.5083614717
 20
-285.8246917085
 10
623.5546040252
 20
-291.8220428485
 10
620.4260353599
 20
-297.7518396336
 10
617.129851284
 20
-303.6004433411
 10
613.6736331266
 20
-309.354401995
 10
610.0653303001
 20
-315.0004813061
 10
606.3132420166
 20
-320.5256951111
 10
602.4259981995
 20
-325.9173352411
 10
598.4125396341
 20
-331.163000751
 10
594.2820974038
 20
-336.2506264421
 10
590.0441716579
 20
-341.1685106122
 10
585.7085097616
 20
-345.9053419702
 10
581.2850838761
 20
-350.4502256521
 10
576.7840680227
 20
-354.7927082799
 10
572.2158146821
 20
-358.9228020043
 10
567.5908309835
 20
-362.8310074774
 10
562.9197545374
 20
-366.5083357014
 10
558.2133289695
 20
-369.9463287035
 10
553.4823792093
 20
-373.1370789897
 10
548.7377865929
 20
-376.073247732
 10
543.9904638354
 20
-378.7480816483
 10
539.2513299312
 20
-381.1554285347
 10
534.5312850402
 20
-383.2897514165
 10
529.8411854169
 20
-385.1461412824
 10
525.1918184407
 20
-386.7203283764
 10
520.5938778046
 20
-388.0086920176
 10
516.0579389195
 20
-389.0082689285
 10
511.5944345902
 20
-389.7167600501
 10
507.2136310196
 20
-390.13253583
 10
502.9256041963
 20
-390.2546399708
 10
498.7402167195
 20
-390.0827916289
 10
494.6670951145
 20
-389.617386061
 10
490.7156076914
 20
-388.8594937149
 10
486.894842998
 20
-387.8108577672
 10
483.2135889156
 20
-386.4738901143
 10
479.6803124464
 20
-384.8516658245
 10
477.5564739606
 20
-383.6978341268
  0
LWPOLYLINE
  5
BC
330
1F
100
AcDbEntity
  8
0
  6
Continuous
 62
     7
370
    25
100
AcDbPolyline
 90
       71
 70
   128
 43
0.0
 10
641.7099239771
 20
-150.9734525175
 10
644.0910461694
 20
-152.0516050959
 10
647.5518698062
 20
-153.910996562
 10
650.8510873578
 20
-156.0481068544
 10
653.9813369798
 20
-158.4581672444
 10
656.9356338614
 20
-161.1357999448
 10
659.707385811
 20
-164.0750301102
 10
662.2904079661
 20
-167.2692991687
 10
664.6789365944
 20
-170.711479457
 10
666.8676419544
 20
-174.3938901249
 10
668.8516401887
 20
-178.3083142742
 10
670.6265042215
 20
-182.4460172942
 10
672.1882736371
 20
-186.7977663514
 10
673.5334635171
 20
-191.353850992
 10
674.6590722171
 20
-196.1041048097
 10
675.5625880638
 20
-201.0379281308
 10
676.2419949601
 20
-206.1443116661
 10
676.6957768836
 20
-211.4118610773
 10
676.9229212693
 20
-216.828822402
 10
676.9229212693
 20
-222.3831082812
 10
676.6957768836
 20
-228.0623249314
 10
676.2419949601
 20
-233.8537997994
 10
675.5625880638
 20
-239.7446098402
 10
674.6590722171
 20
-245.7216103532
 10
673.5334635171
 20
-251.7714643131
 10
672.1882736371
 20
-257.8806721301
 10
670.6265042215
 20
-264.0356017727
 10
668.8516401887
 20
-270.2225191862
 10
666.8676419544
 20
-276.4276189385
 10
664.6789365944
 20
-282.6370550259
 10
662.2904079661
 20
-288.8369717683
 10
659.707385811
 20
-295.0135347272
 10
656.9356338614
 20
-301.1529615754
 10
653.9813369798
 20
-307.2415528511
 10
650.8510873578
 20
-313.2657225262
 10
647.5518698062
 20
-319.2120283227
 10
644.0910461694
 20
-325.0672017072
 10
640.4763388983
 20
-330.8181774983
 10
636.7158138182
 20
-336.4521230203
 10
632.8178621311
 20
-341.9564667378
 10
628.7911816912
 20
-347.3189263075
 10
624.6447575973
 20
-352.5275359854
 10
620.3878421427
 20
-357.5706733265
 10
616.0299341705
 20
-362.4370851196
 10
611.5807578774
 20
-367.1159124969
 10
607.0502411153
 20
-371.596715165
 10
602.4484932388
 20
-375.8694947012
 10
597.7857825468
 20
-379.9247168635
 10
593.0725133699
 20
-383.7533328657
 10
588.3192028548
 20
-387.3467995682
 10
583.5364574958
 20
-390.6970985418
 10
578.7349494681
 20
-393.7967539595
 10
573.9253928135
 20
-396.6388492779
 10
569.1185195335
 20
-399.2170426711
 10
564.3250556421
 20
-401.5255811814
 10
559.5556972316
 20
-403.5593135569
 10
554.8210866054
 20
-405.3137017452
 10
550.1317885313
 20
-406.7848310204
 10
545.4982666668
 20
-407.9694187178
 10
540.9308602111
 20
-408.864821559
 10
536.4397608339
 20
-409.4690415503
 10
532.034989934
 20
-409.7807304404
 10
527.7263762778
 20
-409.7991927296
 10
523.523534067
 20
-409.5243872214
 10
519.4358414859
 20
-408.9569271143
 10
515.4724197753
 20
-408.0980786337
 10
511.6421128786
 20
-406.9497582063
 10
507.9534677082
 20
-405.5145281841
 10
504.414715074
 20
-403.7955911264
 10
501.0337513167
 20
-401.7967826539
 10
498.100854866
 20
-399.7386108686
  0
LWPOLYLINE
  5
BD
330
1F
100
AcDbEntity
  8
0
  6
Continuous
 62
     7
370
    25
100
AcDbPolyline
 90
       94
 70
   128
 43
0.0
 10
606.3892803182
 20
-134.7640370431
 10
610.0892316673
 20
-133.9359995078
 10
614.8814730468
 20
-133.1058940184
 10
619.5936561208
 20
-132.5683330226
 10
624.2162911797
 20
-132.3243990969
 10
628.7400688517
 20
-132.3745834915
 10
633.1558788505
 20
-132.7187851419
 10
637.4548283226
 20
-133.3563108717
 10
641.6282597558
 20
-134.285876789
 10
645.6677684146
 20
-135.5056108716
 10
649.5652192662
 20
-137.0130567375
 10
653.3127633632
 20
-138.8051785914
 10
656.9028536505
 20
-140.8783673383
 10
660.3282601641
 20
-143.2284478519
 10
663.5820845912
 20
-145.8506873829
 10
666.6577741623
 20
-148.7398050898
 10
669.549134848
 20
-151.8899826742
 10
672.2503438326
 20
-155.2948760974
 10
674.7559612408
 20
-158.9476283574
 10
677.0609410925
 20
-162.8408832972
 10
679.1606414651
 20
-166.9668004194
 10
681.0508338415
 20
-171.3170706761
 10
682.7277116257
 20
-175.8829332019
 10
684.187897809
 20
-180.6551929574
 10
685.4284517709
 20
-185.6242392464
 10
686.4468752007
 20
-190.7800650711
 10
687.2411171292
 20
-196.1122872843
 10
687.8095780589
 20
-201.6101675003
 10
688.151113185
 20
-207.2626337198
 10
688.2650347013
 20
-213.0583026283
 10
688.151113185
 20
-218.9855025197
 10
687.8095780589
 20
-225.0322968023
 10
687.2411171292
 20
-231.1865080372
 10
686.4468752007
 20
-237.435742462
 10
685.4284517709
 20
-243.7674149502
 10
684.187897809
 20
-250.1687743559
 10
682.7277116257
 20
-256.6269291934
 10
681.0508338415
 20
-263.1288735982
 10
679.1606414651
 20
-269.6615135196
 10
677.0609410925
 20
-276.2116930902
 10
674.7559612408
 20
-282.7662211199
 10
672.2503438326
 20
-289.3118976618
 10
669.549134848
 20
-295.8355405943
 10
666.6577741623
 20
-302.3240121687
 10
663.5820845912
 20
-308.7642454668
 10
660.3282601641
 20
-315.1432707159
 10
656.9028536505
 20
-321.4482414079
 10
653.3127633632
 20
-327.6664601711
 10
649.5652192662
 20
-333.7854043403
 10
645.6677684146
 20
-339.7927511763
 10
641.6282597558
 20
-345.6764026822
 10
637.4548283226
 20
-351.4245099667
 10
633.1558788505
 20
-357.0254971067
 10
628.7400688517
 20
-362.4680844596
 10
624.2162911797
 20
-367.7413113787
 10
619.5936561208
 20
-372.8345582869
 10
614.8814730468
 20
-377.7375680625
 10
610.0892316673
 20
-382.4404666966
 10
605.2265829187
 20
-386.933783177
 10
600.3033195285
 20
-391.2084685624
 10
595.3293562938
 20
-395.2559142053
 10
590.3147101147
 20
-399.0679690888
 10
585.2694798213
 20
-402.6369562417
 10
580.2038258359
 20
-405.9556881989
 10
575.1279497114
 20
-409.0174814758
 10
570.052073587
 20
-411.8161700283
 10
564.9864196016
 20
-414.34611767
 10
559.9411893082
 20
-416.6022294232
 10
554.9265431291
 20
-418.579961779
 10
549.9525798944
 20
-420.2753318475
 10
545.0293165041
 20
-421.6849253793
 10
540.1666677555
 20
-422.8059036404
 10
535.374426376
 20
-423.6360091298
 10
530.6622433021
 20
-424.1735701255
 10
526.0396082432
 20
-424.4175040513
 10
521.5158305712
 20
-424.3673196566
 10
517.1000205723
 20
-424.0231180063
 10
512.8010711002
 20
-423.3855922764
 10
508.627639667
 20
-422.4560263592
 10
504.5881310082
 20
-421.2362922765
 10
500.6906801567
 20
-419.7288464106
 10
496.9431360597
 20
-417.9367245568
 10
493.3530457724
 20
-415.8635358099
 10
489.9276392588
 20
-413.5134552963
 10
486.6738148317
 20
-410.8912157653
 10
483.5981252606
 20
-408.0020980583
 10
480.7067645749
 20
-404.851920474
 10
478.0055555903
 20
-401.4470270507
 10
475.4999381821
 20
-397.7942747908
 10
473.1949583304
 20
-393.901019851
 10
471.0952579578
 20
-389.7751027288
 10
469.2050655814
 20
-385.4248324721
 10
467.5281877972
 20
-380.8589699462
 10
466.4006577491
 20
-377.2577185096
  0
LWPOLYLINE
  5
BE
330
1F
100
AcDbEntity
  8
0
  6
Continuous
 62
     7
370
    25
100
AcDbPolyline
 90
       72
 70
   128
 43
0.0
 10
679.8701856638
 20
-154.0902755501
 10
681.651590992
 20
-155.1655092952
 10
685.0769975056
 20
-157.5155898088
 10
688.3308219327
 20
-160.1378293398
 10
691.4065115038
 20
-163.0269470467
 10
694.2978721895
 20
-166.1771246311
 10
696.9990811741
 20
-169.5820180543
 10
699.5046985823
 20
-173.2347703143
 10
701.809678434
 20
-177.1280252541
 10
703.9093788066
 20
-181.2539423763
 10
705.799571183
 20
-185.604212633
 10
707.4764489672
 20
-190.1700751588
 10
708.9366351506
 20
-194.9423349143
 10
710.1771891125
 20
-199.9113812033
 10
711.1956125423
 20
-205.067207028
 10
711.9898544708
 20
-210.3994292412
 10
712.5583154004
 20
-215.8973094572
 10
712.8998505265
 20
-221.5497756767
 10
713.0137720428
 20
-227.3454445852
 10
712.8998505265
 20
-233.2726444766
 10
712.5583154004
 20
-239.3194387592
 10
711.9898544708
 20
-245.4736499941
 10
711.1956125423
 20
-251.7228844189
 10
710.1771891125
 20
-258.054556907
 10
708.9366351506
 20
-264.4559163128
 10
707.4764489672
 20
-270.9140711503
 10
705.799571183
 20
-277.4160155551
 10
703.9093788066
 20
-283.9486554765
 10
701.809678434
 20
-290.498835047
 10
699.5046985823
 20
-297.0533630768
 10
696.9990811741
 20
-303.5990396187
 10
694.2978721895
 20
-310.1226825512
 10
691.4065115038
 20
-316.6111541256
 10
688.3308219327
 20
-323.0513874237
 10
685.0769975056
 20
-329.4304126728
 10
681.651590992
 20
-335.7353833648
 10
678.0615007047
 20
-341.953602128
 10
674.3139566077
 20
-348.0725462972
 10
670.4165057562
 20
-354.0798931332
 10
666.3769970974
 20
-359.9635446391
 10
662.2035656642
 20
-365.7116519236
 10
657.9046161921
 20
-371.3126390636
 10
653.4888061932
 20
-376.7552264165
 10
648.9650285212
 20
-382.0284533356
 10
644.3423934623
 20
-387.1217002437
 10
639.6302103883
 20
-392.0247100194
 10
634.8379690089
 20
-396.7276086535
 10
629.9753202603
 20
-401.2209251339
 10
625.05205687
 20
-405.4956105193
 10
620.0780936353
 20
-409.5430561622
 10
615.0634474562
 20
-413.3551110457
 10
610.0182171628
 20
-416.9240981986
 10
604.9525631774
 20
-420.2428301558
 10
599.876687053
 20
-423.3046234327
 10
594.8008109285
 20
-426.1033119852
 10
589.7351569431
 20
-428.6332596269
 10
584.6899266497
 20
-430.8893713801
 10
579.6752804706
 20
-432.8671037359
 10
574.7013172359
 20
-434.5624738044
 10
569.7780538457
 20
-435.9720673362
 10
564.9154050971
 20
-437.0930455973
 10
560.1231637176
 20
-437.9231510867
 10
555.4109806436
 20
-438.4607120824
 10
550.7883455847
 20
-438.7046460082
 10
546.2645679127
 20
-438.6544616135
 10
541.8487579139
 20
-438.3102599632
 10
537.5498084418
 20
-437.6727342333
 10
533.3763770086
 20
-436.7431683161
 10
529.3368683498
 20
-435.5234342334
 10
525.4394174982
 20
-434.0159883675
 10
521.6918734012
 20
-432.2238665137
 10
519.8831884421
 20
-431.2259115119
  0
LWPOLYLINE
  5
BF
330
1F
100
AcDbEntity
  8
0
  6
Continuous
 62
     7
370
    25
100
AcDbPolyline
 90
       33
 70
   128
 43
0.0
 10
507.9528054987
 20
-333.1519358774
 10
508.0676559568
 20
-328.1053383969
 10
508.4118817749
 20
-322.940442529
 10
508.9845072075
 20
-317.671888732
 10
509.7839090857
 20
-312.3146112942
 10
510.807821418
 20
-306.8837960005
 10
512.0533418136
 20
-301.3948370869
 10
513.5169397096
 20
-295.8632936037
 10
515.1944663789
 20
-290.3048453121
 10
517.0811666897
 20
-284.7352482374
 10
519.1716925851
 20
-279.1702900079
 10
521.4601182423
 20
-273.6257451021
 10
523.9399568701
 20
-268.1173301351
 10
526.6041790965
 20
-262.6606593075
 10
529.4452328943
 20
-257.2712001456
 10
532.4550649876
 20
-251.964229657
 10
535.6251436804
 20
-246.7547910261
 10
538.9464830403
 20
-241.6576509727
 10
542.40966837
 20
-236.687257894
 10
546.0048828944
 20
-231.8577009093
 10
549.7219355874
 20
-227.1826699225
 10
553.5502900591
 20
-222.6754168169
 10
557.479094423
 20
-218.3487178912
 10
561.4972120562
 20
-214.2148376434
 10
565.5932531678
 20
-210.2854940064
 10
569.7556070841
 20
-206.5718251315
 10
573.9724751609
 20
-203.0843578166
 10
578.2319042273
 20
-199.8329776668
 10
582.5218204689
 20
-196.8269010724
 10
586.830063652
 20
-194.074649084
 10
591.1444215933
 20
-191.5840232589
 10
595.4526647765
 20
-189.3620835467
 10
595.7726216372
 20
-189.2076862578
  0
LWPOLYLINE
  5
C0
330
1F
100
AcDbEntity
  8
0
  6
Continuous
 62
     7
370
    25
100
AcDbPolyline
 90
        3
 70
   128
 43
0.0
 10
508.238494296
 20
-340.8376716337
 10
508.0676559568
 20
-338.0659298415
 10
507.9528054987
 20
-333.1519358774
  0
LWPOLYLINE
  5
C1
330
1F
100
AcDbEntity
  8
0
  6
Continuous
 62
     7
370
    25
100
AcDbPolyline
 90
       31
 70
   128
 43
0.0
 10
508.1244903675
 20
-339.140879199
 10
508.4095959154
 20
-334.8917639663
 10
508.9795193059
 20
-329.311029441
 10
509.7754273772
 20
-323.639169942
 10
510.7953413767
 20
-317.8902866056
 10
512.0367256374
 20
-312.0786720615
 10
513.4964938824
 20
-306.2187748993
 10
515.1710168979
 20
-300.3251637465
 10
517.0561315558
 20
-294.4124910492
 10
519.1471511641
 20
-288.4954566432
 10
521.4388771185
 20
-282.5887712083
 10
523.9256118272
 20
-276.7071196953
 10
526.601172876
 20
-270.8651248166
 10
529.4589083984
 20
-265.0773106918
 10
532.4917136138
 20
-259.3580667388
 10
535.6920484904
 20
-253.7216118992
 10
539.0519564916
 20
-248.1819592879
 10
542.5630843566
 20
-242.7528813541
 10
546.2167028684
 20
-237.447875641
 10
550.0037285557
 20
-232.2801312285
 10
553.9147462758
 20
-227.2624959436
 10
557.9400326226
 20
-222.4074444182
 10
562.0695801
 20
-217.7270470754
 10
566.2931220022
 20
-213.2329401203
 10
570.6001579386
 20
-208.936296611
 10
574.9799799393
 20
-204.8477986802
 10
579.4216990766
 20
-200.977610978
 10
583.914272537
 20
-197.3353554008
 10
588.4465310749
 20
-193.9300871698
 10
593.0072067816
 20
-190.7702723185
 10
594.2462246736
 20
-189.9574954146
  0
ENDSEC
  0
SECTION
  2
OBJECTS
  0
DICTIONARY
  5
C
330
0
100
AcDbDictionary
281
     1
  3
ACAD_GROUP
350
D
  3
ACAD_LAYOUT
350
1A
  3
ACAD_MLINESTYLE
350
17
  3
ACAD_PLOTSETTINGS
350
19
  3
ACAD_PLOTSTYLENAME
350
E
  3
ACAD_SCALELIST
350
47
  0
DICTIONARY
  5
D
102
{ACAD_REACTORS
330
C
102
}
330
C
100
AcDbDictionary
281
     1
  0
DICTIONARY
  5
1A
102
{ACAD_REACTORS
330
C
102
}
330
C
100
AcDbDictionary
281
     1
  3
Layout1
350
1E
  3
Layout2
350
26
  3
Model
350
22
  0
DICTIONARY
  5
17
102
{ACAD_REACTORS
330
C
102
}
330
C
100
AcDbDictionary
281
     1
  3
Standard
350
18
  0
DICTIONARY
  5
19
102
{ACAD_REACTORS
330
C
102
}
330
C
100
AcDbDictionary
281
     1
  0
ACDBDICTIONARYWDFLT
  5
E
102
{ACAD_REACTORS
330
C
102
}
330
C
100
AcDbDictionary
281
     1
  3
Normal
350
F
100
AcDbDictionaryWithDefault
340
F
  0
DICTIONARY
  5
47
102
{ACAD_REACTORS
330
C
102
}
330
C
100
AcDbDictionary
281
     1
  3
A0
350
48
  3
A1
350
49
  3
A2
350
4A
  3
A3
350
4B
  3
A4
350
4C
  3
A5
350
4D
  3
A6
350
4E
  3
A7
350
4F
  3
A8
350
50
  3
A9
350
51
  3
B0
350
52
  3
B1
350
53
  3
B2
350
54
  3
B3
350
55
  3
B4
350
56
  3
B5
350
57
  3
B6
350
58
  3
B7
350
59
  3
B8
350
5A
  3
B9
350
5B
  3
C0
350
5C
  3
C1
350
5D
  3
C2
350
5E
  3
C3
350
5F
  3
C4
350
60
  3
C5
350
61
  3
C6
350
62
  3
C7
350
63
  3
C8
350
64
  3
C9
350
65
  3
D0
350
66
  3
D1
350
67
  3
D2
350
68
  0
LAYOUT
  5
1E
102
{ACAD_REACTORS
330
1A
102
}
330
1A
100
AcDbPlotSettings
  1

  2
none_device
  4

  6

 40
0.0
 41
0.0
 42
0.0
 43
0.0
 44
0.0
 45
0.0
 46
0.0
 47
0.0
 48
0.0
 49
0.0
140
0.0
141
0.0
142
1.0
143
1.0
 70
   688
 72
     1
 73
     0
 74
     5
  7

 75
    16
147
1.0
148
0.0
149
0.0
100
AcDbLayout
  1
Layout1
 70
     1
 71
     1
 10
0.0
 20
0.0
 11
420.0
 21
297.0
 12
0.0
 22
0.0
 32
0.0
 14
1.0000000000E+20
 24
1.0000000000E+20
 34
1.0000000000E+20
 15
-1.0000000000E+20
 25
-1.0000000000E+20
 35
-1.0000000000E+20
146
0.0
 13
0.0
 23
0.0
 33
0.0
 16
1.0
 26
0.0
 36
0.0
 17
0.0
 27
1.0
 37
0.0
 76
     0
330
1B
  0
LAYOUT
  5
26
102
{ACAD_REACTORS
330
1A
102
}
330
1A
100
AcDbPlotSettings
  1

  2
none_device
  4

  6

 40
0.0
 41
0.0
 42
0.0
 43
0.0
 44
0.0
 45
0.0
 46
0.0
 47
0.0
 48
0.0
 49
0.0
140
0.0
141
0.0
142
1.0
143
1.0
 70
   688
 72
     1
 73
     0
 74
     5
  7

 75
    16
147
1.0
148
0.0
149
0.0
100
AcDbLayout
  1
Layout2
 70
     1
 71
     2
 10
0.0
 20
0.0
 11
0.0
 21
0.0
 12
0.0
 22
0.0
 32
0.0
 14
0.0
 24
0.0
 34
0.0
 15
0.0
 25
0.0
 35
0.0
146
0.0
 13
0.0
 23
0.0
 33
0.0
 16
1.0
 26
0.0
 36
0.0
 17
0.0
 27
1.0
 37
0.0
 76
     0
330
23
  0
LAYOUT
  5
22
102
{ACAD_REACTORS
330
1A
102
}
330
1A
100
AcDbPlotSettings
  1

  2
none_device
  4
Letter_(8.50_x_11.00_Inches)
  6

 40
6.35
 41
6.35
 42
6.35000508
 43
6.35000508
 44
215.9
 45
279.4
 46
0.0
 47
0.0
 48
0.0
 49
0.0
140
0.0
141
0.0
142
1.0
143
1.0
 70
  1712
 72
     1
 73
     0
 74
     0
  7

 75
     0
147
1.0
148
0.0
149
0.0
100
AcDbLayout
  1
Model
 70
     1
 71
     0
 10
0.0
 20
0.0
 11
279.4
 21
215.9
 12
0.0
 22
0.0
 32
0.0
 14
0.0
 24
0.0
 34
0.0
 15
279.4
 25
215.9
 35
0.0
146
0.0
 13
0.0
 23
0.0
 33
0.0
 16
1.0
 26
0.0
 36
0.0
 17
0.0
 27
1.0
 37
0.0
 76
     0
330
1F
331
29
  0
MLINESTYLE
  5
18
102
{ACAD_REACTORS
330
17
102
}
330
17
100
AcDbMlineStyle
  2
Standard
 70
     0
  3

 62
   256
 51
90.0
 52
90.0
 71
     2
 49
0.5
 62
   256
  6
BYLAYER
 49
-0.5
 62
   256
  6
BYLAYER
  0
ACDBPLACEHOLDER
  5
F
102
{ACAD_REACTORS
330
E
102
}
330
E
  0
SCALE
  5
48
102
{ACAD_REACTORS
330
47
102
}
330
47
100
AcDbScale
 70
     0
300
1:1
140
1.0
141
1.0
290
     1
  0
SCALE
  5
49
102
{ACAD_REACTORS
330
47
102
}
330
47
100
AcDbScale
 70
     0
300
1:2
140
1.0
141
2.0
290
     0
  0
SCALE
  5
4A
102
{ACAD_REACTORS
330
47
102
}
330
47
100
AcDbScale
 70
     0
300
1:4
140
1.0
141
4.0
290
     0
  0
SCALE
  5
4B
102
{ACAD_REACTORS
330
47
102
}
330
47
100
AcDbScale
 70
     0
300
1:5
140
1.0
141
5.0
290
     0
  0
SCALE
  5
4C
102
{ACAD_REACTORS
330
47
102
}
330
47
100
AcDbScale
 70
     0
300
1:8
140
1.0
141
8.0
290
     0
  0
SCALE
  5
4D
102
{ACAD_REACTORS
330
47
102
}
330
47
100
AcDbScale
 70
     0
300
1:10
140
1.0
141
10.0
290
     0
  0
SCALE
  5
4E
102
{ACAD_REACTORS
330
47
102
}
330
47
100
AcDbScale
 70
     0
300
1:16
140
1.0
141
16.0
290
     0
  0
SCALE
  5
4F
102
{ACAD_REACTORS
330
47
102
}
330
47
100
AcDbScale
 70
     0
300
1:20
140
1.0
141
20.0
290
     0
  0
SCALE
  5
50
102
{ACAD_REACTORS
330
47
102
}
330
47
100
AcDbScale
 70
     0
300
1:30
140
1.0
141
30.0
290
     0
  0
SCALE
  5
51
102
{ACAD_REACTORS
330
47
102
}
330
47
100
AcDbScale
 70
     0
300
1:40
140
1.0
141
40.0
290
     0
  0
SCALE
  5
52
102
{ACAD_REACTORS
330
47
102
}
330
47
100
AcDbScale
 70
     0
300
1:50
140
1.0
141
50.0
290
     0
  0
SCALE
  5
53
102
{ACAD_REACTORS
330
47
102
}
330
47
100
AcDbScale
 70
     0
300
1:100
140
1.0
141
100.0
290
     0
  0
SCALE
  5
54
102
{ACAD_REACTORS
330
47
102
}
330
47
100
AcDbScale
 70
     0
300
2:1
140
2.0
141
1.0
290
     0
  0
SCALE
  5
55
102
{ACAD_REACTORS
330
47
102
}
330
47
100
AcDbScale
 70
     0
300
4:1
140
4.0
141
1.0
290
     0
  0
SCALE
  5
56
102
{ACAD_REACTORS
330
47
102
}
330
47
100
AcDbScale
 70
     0
300
8:1
140
8.0
141
1.0
290
     0
  0
SCALE
  5
57
102
{ACAD_REACTORS
330
47
102
}
330
47
100
AcDbScale
 70
     0
300
10:1
140
10.0
141
1.0
290
     0
  0
SCALE
  5
58
102
{ACAD_REACTORS
330
47
102
}
330
47
100
AcDbScale
 70
     0
300
100:1
140
100.0
141
1.0
290
     0
  0
SCALE
  5
59
102
{ACAD_REACTORS
330
47
102
}
330
47
100
AcDbScale
 70
     0
300
1/128" = 1'-0"
140
0.0078125
141
12.0
290
     0
  0
SCALE
  5
5A
102
{ACAD_REACTORS
330
47
102
}
330
47
100
AcDbScale
 70
     0
300
1/64" = 1'-0"
140
0.015625
141
12.0
290
     0
  0
SCALE
  5
5B
102
{ACAD_REACTORS
330
47
102
}
330
47
100
AcDbScale
 70
     0
300
1/32" = 1'-0"
140
0.03125
141
12.0
290
     0
  0
SCALE
  5
5C
102
{ACAD_REACTORS
330
47
102
}
330
47
100
AcDbScale
 70
     0
300
1/16" = 1'-0"
140
0.0625
141
12.0
290
     0
  0
SCALE
  5
5D
102
{ACAD_REACTORS
330
47
102
}
330
47
100
AcDbScale
 70
     0
300
3/32" = 1'-0"
140
0.09375
141
12.0
290
     0
  0
SCALE
  5
5E
102
{ACAD_REACTORS
330
47
102
}
330
47
100
AcDbScale
 70
     0
300
1/8" = 1'-0"
140
0.125
141
12.0
290
     0
  0
SCALE
  5
5F
102
{ACAD_REACTORS
330
47
102
}
330
47
100
AcDbScale
 70
     0
300
3/16" = 1'-0"
140
0.1875
141
12.0
290
     0
  0
SCALE
  5
60
102
{ACAD_REACTORS
330
47
102
}
330
47
100
AcDbScale
 70
     0
300
1/4" = 1'-0"
140
0.25
141
12.0
290
     0
  0
SCALE
  5
61
102
{ACAD_REACTORS
330
47
102
}
330
47
100
AcDbScale
 70
     0
300
3/8" = 1'-0"
140
0.375
141
12.0
290
     0
  0
SCALE
  5
62
102
{ACAD_REACTORS
330
47
102
}
330
47
100
AcDbScale
 70
     0
300
1/2" = 1'-0"
140
0.5
141
12.0
290
     0
  0
SCALE
  5
63
102
{ACAD_REACTORS
330
47
102
}
330
47
100
AcDbScale
 70
     0
300
3/4" = 1'-0"
140
0.75
141
12.0
290
     0
  0
SCALE
  5
64
102
{ACAD_REACTORS
330
47
102
}
330
47
100
AcDbScale
 70
     0
300
1" = 1'-0"
140
1.0
141
12.0
290
     0
  0
SCALE
  5
65
102
{ACAD_REACTORS
330
47
102
}
330
47
100
AcDbScale
 70
     0
300
1-1/2" = 1'-0"
140
1.5
141
12.0
290
     0
  0
SCALE
  5
66
102
{ACAD_REACTORS
330
47
102
}
330
47
100
AcDbScale
 70
     0
300
3" = 1'-0"
140
3.0
141
12.0
290
     0
  0
SCALE
  5
67
102
{ACAD_REACTORS
330
47
102
}
330
47
100
AcDbScale
 70
     0
300
6" = 1'-0"
140
6.0
141
12.0
290
     0
  0
SCALE
  5
68
102
{ACAD_REACTORS
330
47
102
}
330
47
100
AcDbScale
 70
     0
300
1'-0" = 1'-0"
140
12.0
141
12.0
290
     0
  0
ENDSEC
  0
EOF
